Tere Bina – Guru (Ukulele Tabs)

Dum dara dum dara mast mast dara
A-2s4-4-2---2h4-4-2--4-4-4-4-4-4----

Dum dara dum dara mast mast dara
A-4s7--2-2-2--2-0--2-0-2-2-0h2p0-------
E----------------------------------2---

Dum dara dum dum
Oh hum dum bin tere kyaa jeenaa
A-0-0-0-2-4--0-2-4--7-2-2--0-0-0---

Dum dara dum dara mast mast dara
A--4-4-2---4-4-2--4-4-4-4-4-4----

Dum dara dum dara mast mast dara
A-4s7--2-2-2--2-0--2-0-2-2-0-------
E-----------------------------2---

Dum dara dum dum
Oh hum dum bin tere kyaa jeenaa
A-0-0-0-2-4--0-2-4--7-2-2--0-0-0---


Tere bina beswaadi beswaadi ratiyaan, oh sajna
A-5s7-7-7--9-7-5-5-7-5-4--2-4-2-0--0-0-2-2h4---

Tere bina beswaadi beswaadi ratiyaan, oh sajna
A-5s7-7-7--9-7-5-5-7-5-4--2-4-2-0--0-0-2-2h4---

Rookhi re oh rookhi re, 
A-2-4s5--5-5-5-5-5---4h5p4-2---

Kaatore kaate katena
A-5-5-5-5-5s7--2-0-2-4----

Tere bina beswaadi beswaadi ratiyaan, oh sajna
A-5s7-7-7--9-7-5-5-7-5-4--2-4-2-0--0-0-2-2h4--2-

Dum dara dum dara mast mast dara
A-2h4-4-2---4-4-2--4-4-4-4-4-4----

Dum dara dum dara mast mast dara
A-4s7--2-2-2--2-0--2-0-2-2-0h2p0-------
E----------------------------------2---

Dum dara dum dum
Oh hum dum bin tere kyaa jeenaa
A-0-0-0-2-4--0-2-4--7-2-2--0-0-0---



Leave a Reply

Your email address will not be published. Required fields are marked *