Rang De Basanti – Intro Tabs on Ukulele

Part 1 

E---3--6-6--5-5--3-3--1---

A---------------0------------------------------
E--3-1--3-1--3-----3----3--6-6--5-5--3-3--1-3--


Part 2

A--2-3(7)---3-2-3-2-3-2-3-2----

A--3-2-3--5---3-2-3-2----

A-2-5-3-2----3-2---------
E------------------5-3---


Part 3 (same as part 1)

E---3--6-6--5-5--3-3--1---

A---------------0------------------------------
E--3-1--3-1--3-----3----3--6-6--5-5--3-3--1-3--


Leave a Reply

Your email address will not be published. Required fields are marked *