Monta Re – Guitar Intro Tabs (Lootera)

B--10-12s14-14--12-10--9-10-9--7-9-10-10s12---

B--10-12s14-14--12-10--9-10-9--7-9-10-10s12---




e----------11--11--12-12-12-12-12---12---
B-10-12-----------------------------------

e-11-12--14--12-12-12-12--11-9--------
B---------------------------------12--


e----------11--11--12-12-12-12-12---12---
B-10-12----------------------------------

e-11-12--14--12-12-12-12--11-9--------
B---------------------------------12--




e------------------------9-------------------
B-10-12-12--10-10-10-10-----12---10-9--7-7--

B----------------7--10-10-10-10--7-----
G--8-8-8-8--9----------------------9--


G-8-9-8-----8h9-9----
D--------9-----------

G-8-9-8-----8h9-9----
D--------9-----------


G-9-9-9-9-9---11s13-13---9-9-9-9-9--11s13-13--


Leave a Reply

Your email address will not be published. Required fields are marked *