Laree Choote – Ukulele Tabs

Intro Music :

A--3-5-5s7--10-8-7s3-3-5--

A--7-7-7-10-8-7s3--3-5----

A--5s7-7--10-8-7--3-2-0---

kismat ka khel hai saara
phirta tha main awara
A--7-7-10-8-7s3--5---7-7-7--10-8-7-3-5----

yeh kya se kya ho gaya,
A--7-7-7--3--5-5-5---

char din ki zindagani
har pal ek nayi kahani
A-7-7-7-10-8-7s3--5---7-7-7--10-8-8-7s3--5--

kya tha main kya ban gaya,
A-5s7-7-7-7--3--5-5-5---

kya hua jo laree choote
A--3-5-5s7--10-8-7s3-3-5--

jeevan ki gadi looti 
A--7-7-7-10-8-7s3--3-5----

khwab hai to mujhko na jaga,
A-5s7-7-7-7--3--5-5-5---



zindagi ek pal mein saari
A--3-5-5s7--10-10-8-7s3-3-5--

yun palat gayi humari
A--7-7-7-10-8-8-7s3--3-5----

jhoot hai to mujhko na bata!!!
A-5s7-7-7-7--3--5-5-5---



Music :


A--3-5-5s7--10-8-7s3-3-5--

A--7-7-7-10-8-8-7s3--3-5----

A--5s7-7--10-8-7--3-2-0---


A--3-5-5s7--10-8-7s3-3-5--

A--7-7-7-10-8-8-7s3--3-5----

A--5s7-7--10-8-7--3-2-0---


Leave a Reply

Your email address will not be published. Required fields are marked *