Afreen Afreen – Coke Studio (Ukulele Tabs)

Intro : 

A-3-3-4------3----------
E--------6-6---6-4-6----

A--3-3-4-----3----3----3----3--
E-----------6----6----6----6---

A-3-6-3-4-4--4--3-6-3-----------
E-----------------------6-6--6--

A--3-6-3-4-4--6--3-4-4s6--

A-------------------------------3---------------
E-----4-3-4-----4-3-4----4-3-4------6---6(5)---
C--3----------3--------3-----------------------

A-------------------------------3----------
E-----4-3-4-----4-3-4----4-3-4------6------
C--3----------3-------3--------------------


A-----------6---------6----------
E-----4-6-4----4-6-4------4-6-4--
C--3-----------------------------

Aisa dekha naheen khoob-soorat koyi 
A----------------------------6-4-3-------
E--4-3----4s6-6-6s4--4-3-4---------------
C-------3--------------------------------

Jism jaise ajanta ki moorat koyi 
A-----------------------------------6-4-3---
E-4-3h4p3----4s6-6---6s8--4-3--4------------
C---------3---------------------------------

Jism jaise nigaahon pah jaadu koyi
A----------3-3-3--3-4----6--4-3----
E--4-3-4--------------6------------

Jism naghmah koyi
Jism khush-bu koyi
A----------3-3-3---3-4----6--4-3----
E--4-3-4---------------6------------

Jism jaise mahakti hui chandani 
A-3-4-1--3s8--8-8-8--4-6s8-8--6-6----

Jism jaise machalti hui raagini
A-4-3s1-1-4s8--8-8-8--4-6s8-8--6-6----

Jism jaise kih khilta hua ik chaman 
A-6-8-8s10-10--11-8-8-4-6s8-8--6-6----

Jism jaise kih sooraj ki pahli kiran
A-6-8-8s10-10--11-8-8-4-6s8-8--6-6----

Jism tarsha huwa dil-kash o dil-nisheen
A--6-6--11-11-11-11--13--10-11-11-11-11----

Sandaleen sandaleen
Marmareen marmareen
A-10-10-10-13-11-8--8-4-4-6s8-6-----
E-------------------------------4---



Husn e jaanaan ki tareef mumkin nahi 
A----------3-4-------------------
E-4---3-----------6-4----4-4-4-4-
C---5-----------------5----------

Husn e jaanaan ki tareef mumkin nahi 
A------------3-3h4p3-------------------
E---4---3-4-------------6-4----4-4-4-4-
C-----5---------------------5----------

Afreen afreen
Afreen afreen
A-3-4---6-6-6--6-3-6s8-8--4-6---
E-----6-------------------------

Tu bhi dekhe agar to kahe ham-nisheen
A-6-6-6s8-8-4-6--6-6-6s8-6-4------
E-----------------------------6---


Afreen afreen
Afreen afreen 
A-6-6-6--6s10-10--11--8-8-4-6s8-8-6--------
E-------------------------------------4----

Husn e jaanaan ki tareef mumkin nahi 
A------------3-3h4p3--------------------
E---4---3-4--------------6-4----4-4-4--
C-----5----------------------5----------

Husn e jaanaan ki tareef mumkin nahi 
A------------3-3h4p3--------------------
E---4---3-4--------------6-4----4-4-4--
C-----5----------------------5----------









Leave a Reply

Your email address will not be published. Required fields are marked *