Yeh Tune Kya Kiya – Ukulele Tabs

Saari duniya se jeet ke main aaya hoon idhar
A--2-3---5s7-7-7--7-7--9-10-9--5-5--7-5-5---

Tere aage hi main haara kiya tune kya asar
A--2-3---5s7-7-7--7-7--9-10-9--5-5--7-5-5---

Main dil ka raaz kehta hoon 
A--2-2-5--3--3-3-3h5p3-2----

Ke jab jab saansein leta hoon
A--2-2-5--3-3-3---3h5p3-2---

Tera hi naam leta hoon
A--2-2-5--3--3-3-3h5p3-2----

Ye tune kya kiya..
A--2-2---2h3p2----3-2---
E-------------------5--------

Mujhe tu raazi lagti hai
A-2-2-5--3--3-3--5-3-2---

Jeeti hui baazi lagti hai
A--2-2-5--3-3-3--5-3-2----

Tabeeyat taazi lagti hai 
A-2-2-5--3--3-3--5-3-2---


Ye tune kya kiya..
A--2-2--3-2-----3-2---
E-------------5--------


Leave a Reply

Your email address will not be published. Required fields are marked *