Squid Game Theme – Guitar Tabs

Part 1

e-7-7-7--7-7-7--10-7--5-3--3-5-7--

e-7-7-7--7-7-7--7-5--3-5-3--0-0----


e-7-7-7--7-7-7--10-7--5-3--3-5-7--

e-7-7-7--7-7-7--7-5--3-5-3--0-0----



Part 2

e-0-1-0-1-0-1-0-----0-1-0-1-0-1-0-1----
B----------------3---------------------


Part 3

e-0-0-2-3--3s5--3-5s7-5--3-2-0-------
B-------------------------------3----

e-5-5s7--5-3--3-5-3-5-3-5-5s7-----




e-0-0-2-3--3s5--3-5s7-5--3-2-0-------
B-------------------------------3----

e-5-5s7--5-3--3-5-3-5-3-5-5s7--




Part 1 Again

e-7-7-7--7-7-7--10-7--5-3--3-5-7--

e-7-7-7--7-7-7--7-5--3-5-3--0-0---

Leave a Reply

Your email address will not be published. Required fields are marked *