Raatan Lambiyan – Ukulele Tabs

Teri Meri Gallan Ho Gayi Mashhoor
A--3-5-5-3---3-5-5-3---3-5-5--5-5-3-1--

Kar Na Kabhi Tu Mujhe Nazron Se Door
A-1-3-3-1--1-3-3-1--1-3-3-3s5-3--1-------
E------------------------------------3----

Kithe Chali Ae Tu Kithe Chali Ae
 Tu Kithe Chali Ae 
A----1-1-3-3--3-1------1-1-3-3--3-1-----1-1-1-1--
E-3-----------------3----------------3------------

Jaanda Ae Dil Yeh Toh Jaandi Ae Tu
A--3-5-5-3---3-5-5-3---3-5-5--5-5-3-1--

Tere Bin Main Na Rahun Mere Bina Tu
A-1-3-3-1--1-3-3-1--1-3-3-3s5-3--1---------
E-------------------------------------3----



Kithe Chali Ae Tu Kithe Chali Ae
 Tu Kithe Chali Ae 
A----1-1-3-3--3-1------1-1-3-3--3-1-----1-1-1-1--
E-3----------------3-----------------3------------


Kaatun Kaise Raatan Oh Saawre?
A-5-8-8-8-8s10--8-5--3----3--------
E-----------------------3-----6----

Jiya Nahi Jaata Sunn Baawre?
A-5-8-8-8-8s10--8-5--3-1-3-3s5---

Ke Raataan Lambiyan Lambiyan Re
A-1-0-----------------------------
E-------1--3-3-3--3-3-3--3------



Kate Tere Sangeyan Sangeyan Re
A--0------------------------------
E------3------1-1-1--1-1-1--1---
C----------3----------------------

Ke Raataan Lambiyan Lambiyan Re
A-1-0---------------------------
E-------1--3-3-3--3-3-3--3------

Kate Tere Sangeyan Sangeyan Re
A--0-------------------------------
E------3------1-1-1--1-1-1--1---
C----------3----------------------




Leave a Reply

Your email address will not be published. Required fields are marked *