Mann Bharryaa 2.0 – Ukulele Tabs

Intro:
E----5-3-2--------------
C-2----------4p2-4-2----

E-----5-3-2--2-3--5-5s7--5-5---
C--2----------------------------

Ve Methon Tera Mann Bharrya
A--5-5-5h7--7-4---4-4-4h5--4-5----

Mann Bharya Badal Gaya Saara
A-5(7)-7-7s10--9-7-7---

Ve Tu Mainu Chhad Jaana 
A--5-5-5h7--7-4---4-4-4h5--4-5----

Mann Bharrya Badal Gaya Saara
A-5(7)-7-7s10--9-7-7---

Ve Tu Mainu Chhad Jaana 
A--5-5-5h7--7-4---4-4-4h5--4-5----

Gallan Teriyan Ton Lagda Ae Yaara 
A--------------------5-4-2-0--
E-3-3-7-7-7-7--3-7------------

Gall Gall Te Shaq Kardein
Aitbaar Zara Vi Nai
A-5-4-4h5p4-2-0-0---0-7-5-5-4-2-0-0---


Hunn Teriyan Ankhiyan Ch
Mere Layi Pyar Zara Vi Nai
A-0-----------2-2-2--2-4-4s7--5-5-4---5-5-4---5---
E-----2--0-0---------------------------------------


Mera Te Koyi Hai Ni Tere Bin
A--5-5-5h7--7-4---4-4-4h5--4-5----

Tainu Mil Jana Kise Da Sahara
A-5(7)-7-7s10--9-7-7---


Ve Tu Mainu Chhad Jaana 
A--5-5-5h7--7-4---4-4-4h5--4-5----

Gallan Teriyan Ton Lagda Ae Yaara
A-5(7)-7-7s10--9-7-7--7-7-7-7--5---


Leave a Reply

Your email address will not be published. Required fields are marked *