Manike Manike Hithe – Ukulele Tabs

Manike mage hithe 
A--7-7-7-9--9-9s11----

Muduwe nura hangum
 A--7-7-7-9--9-11----

Yawi awilewi
A--7-6--------7-6----
E----------9---------

Neriye nube nage 
A--7-7-7-9--9-9s11--

Mage neth eha meha 
A--7-7-7-9--9-11----

Yawi sihiwewi 
A--7-6--------7-6----
E----------9---------



Ma hitha langama dawatena 
A------7-7-7-9-7--6-7-6-------
E--9-----------------------9--

Huru pemaka patalena 
A---7-7-7-9-7--6-7-6-------
E----------------------7--


Ruwa nari manhari
A-6-6-6h7-6---6-6-6-h7--6-----


Sukumali numba thama
A--6-6-6-7-6-----6----------
E-------------9-----7-9----

Hitha langama dawatena 
A------7-7-7-9-7--6-7-6-------
E--9-----------------------9--


Huru pemaka patalena 
A---7-7-7-9-7--6-7-6-------
E-----------------------7--


Ruwa nari manhari
A-6-6-6h7-6---6-6-6-h7--6-----


Sukumali numba thama
A--6-6-6-7-6-----6---------
E------------9-----7-9----


Manike mage hithe 
A--7-7-7-9--9-9s11----


Leave a Reply

Your email address will not be published. Required fields are marked *