Mitwa – Ukulele Tabs

Mere mann ye bata de tu
A------------7-7--4----4---4h5p4-------
E--4-5-7-7----------7-----------7--5--

Kis or chala hai tu 
A-------------7-7-4-----------
E--4-5-7-7----------7-7--------

Kya paya nahi tune
A------------7-7--4----4---4h5p4-------
E--4-5-7-7----------7------------7--5--


Kya dhundh raha hai tu
A-------------7-7-4--------
E--4-5-7-7----------7-7----


Jo hai ankahee jo hai ansuni
E--7-7s9-9-7-5-----7-7s9-9-7-5-------
C---------------6---------------6---

Woh baat kya hai bata 
E-----4-5-7-------------------
C--6---------6-4--6-6-6-6-6----

Mitwa kahein dharkanein tujhse kya
A----6-7(20)-----5-5-5h7p5-4-----------------
E--7----------7-----------------5-4-7-7-7-7--

Mitwa… 
A----6-7(5)----6-7-11-9-7-6h7p6-------
E--7--------7-------------------9-7--

Yeh khudse toh na tu chhupa
A----5-5-5h7p5-4----------------
E--7--------------5-4-5s7-7-7---

Mere mann ye bata de tu
A------------7-7--4----4---4h5p4-------
E--4-5-7-7----------7------------7--5--



Kis or chala hai tu 
A-------------7-7-4------------
E--4-5-7-7----------7-7--------

Kya paya nahi tune
A------------7-7--4----4---4h5p4-------
E--4-5-7-7----------7-----------7--5--


Kya dhundh raha hai tu
A-------------7-7-4---------
E--4-5-7-7----------7-7------



Leave a Reply

Your email address will not be published. Required fields are marked *