Tune Jo Na Kaha – Ukulele Tabs


Dard pehle se hai zyaada
Khud se phir yeh kiya wada
E-6-3(7)---6-6-3(6)--------
C---------------------5-3--

Khamosh nazrein rahe bezubaan 
A-----3-3-3--3-5--6-5-3----------
E--------------------------6-6---
C--3-----------------------------

Aab na pehle si baatein hain
Bolo to lab thar tharatein hain
E-6-3(7)---6-3(6)--------
C-------------------5-3--

Raaz yeh dil kaNa ho bayaan
A-----3-3-3--3-5--6-5-3----------
E--------------------------6-6---
C--3-----------------------------



Ho gaya ke aasar koi hum pe nayi 
A-3-5-6--5-3-3-5--3------3--------------
E--------------------6-6----6-3--------
C---------------------------------5----

Humsafar mein toh hai
Humsafar hai nahi
A-3-5-5-5s6--5-3-3-3h5--3-------3------------
E---------------------------6-6----6-3-------
C---------------------------------------5----

Durr jaata raha
Paas aatha raha
E------3---4-6--------3----------4-3---
C-3-5-----------5--5----5-3--5---------

Khamakha bewajah khwaab bunta raha
E-------3--6-3-------3----------4-3--
C--3-5---------5--5----5-3--5---------

Tune jo na kaha
Main woh sunta raha
E------3---4-6--------3----------4-3---
C-3-5-----------5--5----5-3--5---------

Khamakha bewajah khwaab bunta raha
E-------3--6-3-------3----------4-3--
C--3-5---------5--5----5-3--5---------

Leave a Reply

Your email address will not be published. Required fields are marked *