Pahadon Mein – Salman Elahi (Ukulele Tabs)

Intro : 
A-----------8--11-9-8--------8---------------------
E-9-11-9----------------11-----11-9-8--8-6-8-8s9--  

A-----------8--11-9-8--------8--------------------
E-9-11-9----------------11-----11-9-8--8-6-8-8s9--  


Mera Dil Kahi Door
Pahadon Mein Khoo Gaya
E------1--1-1-4-2-----1--------------------
C-1-3----------------3----3-3---1h3-1-1—

Mera Dil Kahi Door
Pahadon Mein Khoo Gaya
E------1--1-1-4-2-----1----------------
C-1-3--------------3----3-3---1h3-1-1-

Uss Se Mile Hue
Mujhko Toh Arsa Ho Gaya
E-1-2-4-4-4-4--1-4-1----1-------------
C--------------------3----3-1h3-1-1--
Music:
E------1(4)--1-1-4-2(3)-----1-------------------
C-1-3---------------------3----3-3---1h3-3-3-1--

Mera Dil Kahi Door
Pahadon Mein Khoo Gaya
E------1--1-1-4-2-----1----------------
C-1-3--------------3----3-3---1h3-1-1—

Mera Dil Kahi Door
Pahadon Mein Khoo Gaya
E------1(4)--1-1-4-2(3)-----1-----------------
C-1-3--------------------3----3-3---1h3-1-1--



Uss Se Mile Hue
Mujhko Toh Arsa Ho Gaya
E-1-2-4-4-4-4--1-4-1----1-------------
C---------------------3----3-1h3-1-1--

Arre Koi Toh Jaao
Uss Ko Bulaao
E------1-1----1-1--2-2-1-2-2---
C-1-3------3--------------------

Arre Koi Toh Jaao
Uss Ko Bulaao
E------1-1----1-1--2-2-1-2-2---
C-1-3------3-------------------

Na Maane Toh Ussko
Daant Bhi Lagaao
E-2-2--4-4-4-4---2-1------------
C----------------------3-1-3-1--

Mera Dil Kahi Door
Pahadon Mein Khoo Gaya
E------1(4)--1-1-4-2(3)-----1--------------------
C-1-3---------------------3----3-3---1h3-1-1(4)--


Mera Dil Kahi Door
Pahadon Mein Khoo Gaya
E------1(4)--1-1-4-2(3)-----1-----------------
C-1-3---------------------3----3-3---1h3-1-1--

Uss Se Mile Hue
Mujhko Toh Arsa Ho Gaya
E-1-2-4-4-4-4--1-4-1----1-------------
C---------------------3----3-1h3-1-1--



Leave a Reply

Your email address will not be published. Required fields are marked *