Main Koi Aisa Geet Gaoon – Ukulele Tabs

Main titliyoon ke peeche bhagoon
A-3s5-2-3--5-7-8-7-5h7p5--5-7-5-7-5---

Main jugnuoon ke peeche jaoon
A--7-5-7-5-7-5-7-7-------
E------------------5-----

Jitni khushbooien 
A-3-3-3-2--------------5-3-2------
E-------------5--5-5-5----------5--

baag mein milein,haan
A--4-4-4-2----------------------2-2-2-3-3-3-3-3-
E-------------5---3-3-3-5-5-5--------------------

 jitni khushbooien, baag mein milein
A--3-3-3--2------------4-4-4-2----------
E---------------5-5-5--------------5-5--

Main laoon wahan pe, ke tum ho jahan 
A---------------3--3-5-3-2-2----
E-2-2-5--5-5---------------------

Jahan pe ek pal bhi thairoon, main gulsitaan banaoon
A----------2-2-2------------2-2-2----------
E--3-5-3---------3-5-5--3---------3-5-5--

Aga tum kaho
E--3-0-0-0--2--2-3------

Main koi aisa geet gaoon
Ke aarzoo jagaoon
A----------2-2-2------------2-2-2----------
E--3-5-3---------3-5-5--3---------3-5-5--

Aga tum kaho
E--3-0---2--2-3-----

Tum ko bulaoon, ye palkein bichaoon
A-5-5-2-2h3-2---5-5-5-2-2h3-2---

Kadam tum jahan-jahan rakho 
A-5-5s7-7--3-5-3-5-3------
E---------------------5---
Zameen ko aasman banoo
E--3-5-3-5s7-7-7--3-5-5----

sitaroon se sajaoon 
E--3-5s7-7-7--3-5-5---

Aga tum kaho
E-3-0--0-0--2-2-3-----

Main koi aisa geet gaoon
Ke aarzoo jagaoon
A----------2-2-2------------2-2-2--------
E--3-5-3---------3-5---3----------3-5---

Aga tum kaho
E--3-0---2--2-3------




Leave a Reply

Your email address will not be published. Required fields are marked *