Khamoshiyaan – Ukulele Tabs

Kya uss gali mein kabhi tera jaana hua
A--8-8-7-5s3-3s5--5--8-8-7-5s3-3s5--3-1(5)-3(5)-3s5(5)--

Jahaan se zamaane ko guzre zamaana hua
A----7-7-5-3s1-1s3----7-7-5-3-3-1--0(11)---
E--3---------------3---------------------------

Kya uss gali mein kabhi tera jaana hua
A--8-8-8-7-5s3-3s5-5--8-8-7-5-5--3-1(5)-3(5)-3s5(5)--

Jahaan se zamaane ko guzre zamaana hua
A----7-7-5-3s1-1s3-----7-7-5-3-3-1--0(11)---
E--3----------------3------------------------

Khamoshiyan ek saaz hai	
A------0-1-0--------0-1--0------
E-1-3----------1-3--------------

Tum dhun koi laao zaraa
A-------0-0--0-0-3-1---0h1p0--------
E--1-3-------------------------3----
Khamoshiyan alfaaz hain
A------0-1-0-3s5-3-1---------0-1--0---
E-1-3-----------------1-3-------------

Kabhi aa gunguna le zara 
A-------0-0--0-0-3-1--0------
E--1-3------------------3---


Beqarar hain baat karne ko
A--1-3-1-3--3s5--5-5-5--1-3-1-3--3s5-5-5-5---

Kehne do inko zaraa.. haa..
A-5s8-7-5--8-7-5--4--4-4-4-4--5--5-5-5-5--7--

Khamoshiyan.. .
A-8-7-8-5(6)--8-5s3-3-3h5p3-1---

Teri meri khamoshiyan 
A-1-3-1-0h1p0-------------0-0-0-0-0--
E--------------3--0-1-3--------------

Khamoshiyan.. .
A-8-7-8-5(6)--8-5s3-3-3h5p3-1---

Lipti hui khamoshiyan 
A-1-3-1-0h1p0-------------0-0-0-0-0-3-3-3-3-3--0-
E--------------3--0-1-3--------------------------



Leave a Reply

Your email address will not be published. Required fields are marked *