Janam Janam – Ukulele Tabs


Intro :

A-2-4-2-4s5---5-4-2-------------4---4-2--------
E--------------------3---3-5-3------------5-2--

A---------2---2------5s7-------------------------------------
E--2-------------5-3--------2h3-2-----2------------------------
C----4-2---------------------------4----4--2-4-2---1h2-1--

Janam janam janam sath chalna yunhi 
A----5-5-4-4-2--2--------------------
E--2-----------------2-3--3-5-2-3---

Qasam tumhe qasam aake milna yahin 
A------4-4-2-2--------------------------
E-----------------5--5---2--2-3-----2--
C--4-------------------4---------4-----




Ek jaan hai bhale do badan hon juda 
A---------2-2------------------------------
E--2-----------5-5-3--3----------2--------
C----4-2------------------2-4--4----2-4---

Meri hoke humesha hi rehna
Kabhi na kehna alvida
A-1-2-4-2-1-------1--2-1-2--4-2-4--5-4-5--7-5-7-9-
E------------2-4----------------------------------

Meri subha ho tumhi
Aur tumhi shaam ho
A--2-4-2--5-4-4-2--2--------------------
E------------------------2-3--3-5-2-3---

Tum dard ho tum hi aaram ho
A------4-4-2-2--------------------------
E---2-------------5--5---2--2-3-----2--
C----------------------4---------4-----



Meri duaaon se aati hai bas yeh sadaa
A---------2-2---------------------------------
E--2-----------5-5-3--3-----------2--------
C----4-2------------------2-4--4----2-4---

Meri hoke humesha hi rehna
Kabhi na kehna alvida
A-1-2-4-2-1-------1--2-1-2--4-2-4--5-4-5--7-5-7-9-
E-----------2-4-----------------------------------

Tremelo:

A--2-4-2--5(6)-4(6)-2(6)--2-------------------------
E-----------------------------5-2-3(6)--3-5-2-3(12)-

A-4(6)-2(6)-----------------------------------
E--------------5(6)--5-3----2(6)--2-3---2(6)--
C------------------------4------------4---------

A---------2(6)------------------------------------------
E--2------------5(6)-3(6)--3-2--------------2-----------
C----4-2--------------------------2-4(6)--4----2-4(6)--


A-1-2-4-2-1-------1--2-1-2--4-2-4--5-4-5--7-5-7-9-
E-----------2-4-----------------------------------

x(y) represents x is the fret number and y is the number of times you play the fret

So, 2(6) = play 2nd fret 6 times.

Music:

A--2-4-2-5-5-4-4-2--2--------------------
E-------------------------2-3--3-5-2-3---

A------4-4-2-2--------------------------
E---2-------------5--5---2--2-3-----2--
C----------------------4--------4-----

A---------2-2-----------------------------
E--2-----------5-5-3--3-----------2--------
C----4-2------------------2-4--4----2-4---

A-1-2-4-2-1-------1--2-1-2--4-2-4--5-4-5--7-5-7-9-
E------------2-4----------------------------------


Leave a Reply

Your email address will not be published. Required fields are marked *