DDLJ Theme – Ukulele Tabs

A-0-0-0--7-5-7--3-5-8---7(9)-----

A-0-0-0-0--7-5-7--3-5-3---2(9)-----

A-0-0-0-0---7-5-7--3-5-8---7(9)-----

A-0-0-0-0---7-5-7--3-5-3---2(9)-----


A-0-2------0-2--------0-3-2(9)----
E------3-3-------3-3-------------

A-0-2------0-2-------3-2---0(9)----
E------3-3-------3-3---------------

A-0-0-0-0--7-5-7--3-5--10-7----


Leave a Reply

Your email address will not be published. Required fields are marked *