Aviman – Tanveer Evan (GuitarTabs)

Ami Pari ni tomake
Apon kore rakhte
e----1-3-1-3--3-3s6-5-3s1--1-1h3p1------1--1-1h3p1----------
B-3---------------------------------3-3--------------3-3-1--


Ami Pari ni tomake
Abar amar kore rakhte
e----1-3-1-3--3-3s6-5-3s1--1-1h3p1------1--1-1h3p1----------
B-3--------------------------------3-3--------------3-3-1--

Tumi bujhoni ami bhuli ni
Tumi swapno te keno aso ni
B-----1--3-1-3--3-1-3-1-3--3-3---3s4-4-4-4s6-4-3-1-1---
G--3---------------------------------------------------


Amar ovimani tomake niye sob gachi
B-1---1---1---1-----1----1-3-1---------
G---3---3---------3----3---------3-2-2--




Tumi bujhoni ami bhuli ni
Tumi swapno te keno aso ni
B-----1--3-1-3--3-1-3-1-3--3-3---3s4-4-4-4s6-4-3-1-1---
G--3---------------------------------------------------

Amar ovimani tomake niye sob gachi
B-1---1---1---1-----1----1-3-1--1h3p1----------
G---3---3---------3----3----------------3-2---

Gaane gaane shurey shurey koto kotha
e----1-3-1-3-1-3-1-3-1-3-3--
B-3---------------------------


Bolechi tomake tumi bujhoni, bujhoni
e-3s6-6-6--6s8-6-5h6p5-5--------5--------------------
B--------------------------8--8----8-6-6--3-4-3-1-1--


Gaane gaane shurey shurey koto kotha
e----1-3-1-3-1-3-1-3-1-3-3--
B-3--------------------------------


Bolechi tomake tumi bujhoni, bujhoni
e-3s6-6-6--6s8-6-5h6p5-5--------5--------------------
B-------------------------8--8----8-6-6--3-4-3-1-1--


Tumi bujhoni ami bhuli ni
Tumi swapno te keno aso ni
B-----1--3-1-3--3-1-3-1-3--3-3---3s4-4-4-4s6-4-3-1-1---
G--3---------------------------------------------------

Amar ovimani tomake niye sob gachi
B-1---1---1---1-----1----1-3-1--1h3p1-----------
G---3---3---------3----3-----------------3-2-2--

Leave a Reply

Your email address will not be published. Required fields are marked *