Tera Hone Laga Hoon – Solo (Ukulele Tabs)

Solo:

A------10-9-7-----------------------
E-5s7-----------10--5-5s7--5-5s7----

A----10-9-7-------10s12-12--9-9h10p9-7--------
E-7-----------10-----------------------10----

A-10-10-9-7---------------------
E---------------10--5-7-7s8-7---

A---10-9-7------10s12-12--14-12-10-9---------
E-7----------10------------------------10----

Teraaa hone laga hoon
Khone laga hoon 
A--0-2--5-3-2---2---5-5-3-3----2-----
E-------------5-------------5-------

Jab se mila hoon 
A--5-3-2-----2-----
E---------5--------



Scale Run : 
A--5-3-2-----------------2----
E----------5-3-2-0-2-3-5-----


Teraaa hone laga hoon
A----2-2h3p2----2---5-3-2----2---
E--5---------5------------5------

Khone laga hoon 
Jab se mila hoon 

A-5-5-3-2-----2---5-3-3----2-----
E---------5-------------5------


Leave a Reply

Your email address will not be published. Required fields are marked *