Sapna Jahan – Ukulele Tabs

Sapna jahan dastak na de 
C--3-5-3-5s7--7-7---3-3h5-3--2-2-2--

Chaukhat thi woh aankhein meri 
C--2-3-5-5-5-5---3-2h3p2-5--3-3-3--

Baaton se thi tadaad mein 
C--3-3h5-3-5s7--7-7---3-5-3--2-2-2---

Khamoshiyan zyaada meri
C--2-3-3s5-5-5-5---3-2h3p2-5-3-3-3----

Jabse pade tere kadam 
A--------------------3--------------
E--6-4-----3-3-3---6----6--5--5----
C--------5-------------------------

Chalne lagi duniya meri 
A--------3-3--3-5---5-3-5s6-5--3--------
E-----5----------------------------6----
C--5------------------------------------

Mere dil mein jagah Khuda ki khaali thi
A-------3-6--3--6-3--6-3--6-3------3-5--6-6-6---
E--3-6------------------------6------------------

Dekha wahan pe aaj tera chehra hai
A-6-8-10--8-6-3----3-6--3----3-3--6-3---------
E--------------6----------6-------------6-----


Main bhatakta huaa sa ek baadal hoon 
A--6-5-3----3--6-3-6-3--6-5-3----3-5-6---
E--------6--------------------6----------

Jo tere aasmaan pe aake thehra hai
A-6-8--8s10-8-6-3----3-6--3---3-3-------3--
E-----------------6---------6-------6-6----



Leave a Reply

Your email address will not be published. Required fields are marked *