Sham – Aisha (Ukulele Tabs)

Intro : 

E-----4------4-----2----------
C--4-----3------1-----3-4-----

E--4-4-5-4-0-2--2--4-4-5-4-0-2-2---

E-5-5-5s7-5--4-2-0-2-7---

E--4-4-4s5-4-0-2--2--4-4-4s5-4-0-2-2---

E-5-5-5s7-5--4-2-0-2-7---


Shaam bhi koi, jaise he nadi
E-5s7-7-7-4-7---2s4-4-4-2-4----

Leher leher jaise beh rahi hain
E------------------2s4-2---
C-3s4-4-4-4--4-1-----------

Koi ankahee koi ansuni 
E-5s7-7-7-4-7---2s4-4-4-2-4---

Baat dheeme keh rahi hai
E------------------2s4-2---
C-3s4-4-4-4--4-1-----------


Kahi na kahi jaagi hui hai koi arzoo
A---4-2--7-6----4-6-7-6-4--6-4-----------
E-0----------7-------------------7-4----

Kahi na kahi khoye huye se hain main aur tu
A---4-2--7-6----4-6-7-7s9-7--6-4----------
E-0----------7---------------------7-4----

Ke boom boom boom para para
Hain khamosh dono
A-----------2-2-6s7-6--------------------
E-0-0-2-4---------------0-0-2-0-2--------
C-----------------------------------3----




Ke boom boom boom para para
Hain madhosh dono
A-----------2-2-6s7-6-----------------
E-0-0-2-4---------------0-0-2-0-2-----
C---------------------------------3---



Jo gumsum gumsum hain ye fizayein
E-4-4-7-4-7--4-4-2-4--0---

Jo kehti sunti hain yeh nigahein 
A-------------4-2----2----------
E--2-2-5-2-5------5----4--------

Gumsum gumsum hai yeh fizayein hain na 
E-4-4-4s7-4-7--4-4-2-4-0--4-2----

Leave a Reply

Your email address will not be published. Required fields are marked *