Pehli Nazar Main – Ukulele Tabs

Har dua mein shamil tera pyaar hai 
A-5s7-7-7-7-7-7--5-4-4h5p4-4--------------
E-----------------------------5--7-5-4-5--

Bin tere lamha bhi dushwar hai 
A-7-7-7-7-7-7--5-4--5-4-5s7--5-4-----

Dhadhkon ko tujhse hi darkar hai 
A-7-7-7-7-7-7--5-4--5-4------
E------------------------5---

Tujhse hai rahatein
Tujhse hai chahatein
A------4-------7-------4--------------
E-5-7----5-7-7-----5-7----5-7-7-7s12--

Tu jo mili ek din mujhe
A-7-5-4-----7-7-5-4-------
E--------5-------------5--



Mein kahin ho gaya lapata 
A------4--5-4-------------------
E-5-7----------7--5-4-4h5-4s2---

O jaan-e-jaan dono jahan
A-7-7s12--11-7--7-7-5-4------
E------------------------5---

Meri bahon mein aa bhool ja, ah-ah
E-5-7-7s9--10-9-7--5-4-5-4s2---


O jaan-e-jaan dono jahan
A-7-7s12--11-7--7-7-5-4------
E------------------------5---

Meri bahon mein aa bhool ja, ah-ah
E-5-7-7s9--10-9-9h10p9-7--5-4-5-7s9s7--




Pehli nazar mein
Kaise jaado kar diya 
A-4-4------------------------------
E-------5-5h7-7--5-4-4h5-5--5-4-2---

Tera ban baita hai mera jiya 
A-4-4-4-7s9-7-4----4-------------4---
E----------------7----7-5-5--5-7------

Jaane kya hoga
Kya hoga kya pata 
A-4-4----------------------------
E------5-7-7--5-4-4h5-5--5-4-2---

Is pal ko milke aa jee le zara 
A-4-4-4-7s9-7-4--------------------
E------------------7-7s9---7-5-5----
 

Leave a Reply

Your email address will not be published. Required fields are marked *