O Je Mane Na Mana – Ukulele Tabs

O je maane naa maana.
E-----------2-3-3s5--3-2-----
C--2-4--4--------------------

O je maane naa maana.
E-----------2-3-3s5--3-2-----
C--2-4--4--------------------   

O je maane naa maana.
E-----------2-3-3s5--3-2--2h3p2-----
C--2-4--4------------------------4--  


O je maane naa maana.
E-----------2-3-3s5--3-2-----
C--2-4--4-------------------  

Aankhi phiraayile bole, 'Na na na'
E-2-5--4-4s5--4-4h5--4-5------------------------
C-----------------------------2-4--6-7s9-7-6----


O je maane naa maana.
E-----------2-3-3s5--3-2-----
C--2-4--4--------------------  

O je maane naa maana.
E-----------2-3-3s5--3-2-----
C--2-4--4--------------------  

Jato boli 'Naai raati -   molino hoyechhe baati'
A---5-5-5--4--4-4--2-4-4s5---5-4-2-2--2-2h4-----------
E-2-------------------------------------------4-4h5---

Jato boli 'Naai raati -   molino hoyechhe baati'
A---5-5-5--4--4-4--2-4-4s5---5-4-2-2--2-2h4-----------
E-2-------------------------------------------4-4h5---

Mukhopaane cheye bole, 'Na na na'.
E-2-5--4-4s5--4-4h5--4-5--------2-3s5-3-2---
C-------------------------2-4----------------


O je maane naa maana.
E-----------2-3-5--3-2-----
C--2-4--4------------------

O je maane naa maana.
E-----------2-3-3s5--3-2-----
C--2-4--4--------------------

O je maane naa maana.
E-----------2-3-3s5--3-2-----
C--2-4--4--------------------  


Leave a Reply

Your email address will not be published. Required fields are marked *