We Wish You A Merry Christmas – Ukulele Tabs

We wish you a merry Christmas 
A-----3--3-5-3-2-----------
E--3----------------5-5----

We wish you a merry Christmas 
A-----5--5-7-5-3-2---------
E--5-----------------3-----

We wish you a merry Christmas and a happy new year
A----7--7-8-7-5-3--------------5-2-3---
E-3----------------5--3-3-5------------

Good tidings we bring to you and your kin 
A-----3-3-3-2--2-3-2--------
E--3-------------------5-3--

We wish you a merry Christmas and a happy new year
A-----7-5-5-3-3-10-10----------5-2-3--
E--3--------------------3-3-5---------



And a happy new year
A-------------5-2-
E----3-3-5-------     +  C chord




Leave a Reply

Your email address will not be published. Required fields are marked *