O Sanam – Ukulele Tabs Lesson

Intro :

A--------------------------5-5-5-5---
E--2h3-3--2h3-3--3-3-3-3------------- x4

A--5-5-5-5-5--5--2-5-5s7-5--3-3-3-3-3--3---

A-3-2h3p2----4--4-4-4h5p4-2-4-5--5-3-2--3-2----
E---------5----------------------------------5-

A--------------------------5-5-5-5---
E--2h3-3--2h3-3--3-3-3-3-------------- x2


Hmm, shaam-sawere teri yaadein aati hain 
A-2-2-2------------3-2h3p2-------------
E---------5-5-5-5--------------5-3-5----

Aake dil ko mere yun tadpaati hain
A-2-2-2------------3-2h3p2-------------
E---------5-5-5-5-------------5-3-2----

O Sanam, mohabbat ki kasam
A-3------------------------------
E----3-3s5--3-5s8-7-5-3-2--0-2---

A--------------------------5-5-5-5---
E--2h3-3--2h3-3--3-3-3-3-------------- x2

Samjhe zamaana ke dil hai khilona
A---2-2-2-3-2-----------------------
E-3--------------5-5-5-5s7-5-3------

Jaana hai ab kya hai dil ka lagana
E-3-3-3-3--8-7--5-5-5-5-7-5-3---

Nazron se ab naa humko girana
A---------3-2----------------
E-0-3-3-3-------5-5-5-5-7-5--

Mar bhi gaye to bhul na jaana
A-----------5s7-5-5-2-5-2---
E-0-3-3-3-------------------

Aankhon mein basi ho, par door ho kahin 
A-2-2-2------------3-2h3p2-------------
E---------5-5-5-5-------------5-3-5----

Dil ke kareeb ho ye mujhko hai yakin 
A-2-2-2------------3-2-----------
E---------5-5-5-5-------5-3-2----

O Sanam, mohabbat ki kasam
A-3----------------------------
E----3-3s5--3-5s8-7-5-3--0-2---

A--------------------------5-5-5-5---
E--2h3-3--2h3-3--3-3-3-3-------------- x2

Leave a Reply

Your email address will not be published. Required fields are marked *